Time
From the By The Way single
Tabbed by slapmyschecter 

Intro 4x (3rd time with vibrato on ending note) 

G|----------------
D|----------------
A|-----------8-7--  
E|--5-5--5-5------ 

Verse 10x 

G|------------------------------
D|-7-x-x-7-x-x-7-x-x-10-10-10-10
A|------------------------------
E|------------------------------ 

G|---------------------------
D|---------------------------
A|-8-x-x-8-x-x-8-x-x---------
E|-------------------8-8-8-8- 

Chorus 

G|----------------------------------
D|-12-14----14-12-14----------------
A|----------------------------------
E|-------12----------12--12-12-(12)- 

G|-------------------------10-14-12-10----
D|-12-14----14-12-14-12-14-------------14-
A|----------------------------------------
E|-------12------------------------------- 

G|----------------------------------
D|-12-14----14-12-14----------------
A|----------------------------------
E|-------12----------12--12-12-(12)- 

G|----------------------10/-19-19-19-16-
D|-12-14----14-12-14-14-----------------
A|--------------------------------------
E|-------12----------------------------- 

G|----------------------------------
D|-12-14----14-12-14----------------
A|----------------------------------
E|-------12----------12--12-12-(12)- 

G|-------------------------10-14-12-10----
D|-12-14----14-12-14-12-14-------------14-
A|----------------------------------------
E|-------12------------------------------- 

G|----------------------------------
D|-12-14----14-12-14----------------
A|----------------------------------
E|-------12----------12--12-12-(12)- 

G|---------------------------
D|-12-14----14-12-14---12-14-
A|---------------------------
E|-------12------------------ 

Verse is played again 6x 

Chorus is played again 

Bridge 

G|--------------------
D|-9---------7-7-9--9-
A|---7-9-9------------
E|-------------------- 

G|------------------------
D|-9--------7-7-9-9-7-9---
A|---7-9-9--------------7-
E|------------------------ 

G|--------------------
D|-9---------7-7-9--9-
A|---7-9-9------------
E|-------------------- 

G|--------------------------
D|-9---------14-12----------
A|---7-9-9---------12-14-9-
E|-------------------------- 

Verse is played again 6x 

Chorus is played again with new ending: 

G|--------------------------------
D|-12-14----14-12-14--------12-14-
A|--------------------12-14-------
E|-------12----------------------- 

Bridge is played again 

Outro 4x 

G|---------------------------------
D|-9-------9-9-7-------------------
A|---7-7-9-------9-7-9---10-9-10---
E|---------------------7---------7- 

G|---------------------------------
D|---------7---7-7---7-9---7-9-7---
A|-9-7-9-9---9-----9-----9-------9-
E|--------------------------------- 

Fill at 3:29 

G|-7-----------------
D|---9-7-9---9-9-7---
A|---------7-------9-
E|------------------- 

Ending 

G|-------
D|-7-----
A|---9-7-
E|------- 
WP Facebook Auto Publish Powered By : XYZScripts.com