Time
Album: By the Way Single
Transcribed by: Chris Valente
Email: RedHotMetallica@aol.com

Damn froosh and his delay... I say it's not needed if you practice the rythym.
It's 1:00 AM so this is probably off some. lol.
Intro

-x----------------x-----------------x-----------------x-----------------------
-x----------------x-----------------x-----------------x-----------------------
-x----------------x-----------------x-----------------x-----------------------
------------------------------------------------------------------------------
------------------------------------------------------------------------------
------------------------------------------------------------------------------
 Verse                                                                        

-12---------------15----------------12----------------15----------------------
-13---------------13----------------13----------------13----------------------
-14---------------14----------------14----------------14----------------------
------------------------------------------------------------------------------
------------------------------------------------------------------------------
------------------------------------------------------------------------------
 Chorus (Right Channel)                                                       

------------------------------------------------------------------------------
------------------------------------------------------------------------------
-7-9--------------7---7h9-9-9-------------------------------------------------
------------------------------------------------------------------------------
-----77-77------7---7---------------------------------------------------------
-----------1010---------------------------------------------------------------
 Bridge                                                                       

------------------14----------------------------------12----------------------
-16---------------14---------------14-----------------12----------------------
-16---------------14---------------14-----------------13----------------------
-16---------------16---------------14-----------------14----------------------
-14---------------16---------------12-----------------14----------------------
------------------14----------------------------------12----------------------
 Outro                                                                        

------------------------------------------------------------------------------
------------------------------------------------------------------------------
------------------------------------------------------------------------------
------------------------------------------------------------------------------
------------------------------------------------------------------------------
------------------------------------------------------------------------------
                                                                             
WP Facebook Auto Publish Powered By : XYZScripts.com