Torture me
Tabbed by:Jack Richardson
Email:jackrichardson@hotmail.co.uk
Tuning:EADGBe

Verse(strum very fast)(i havent tabbed how long to play each note so listen to song)

e|----------------|
B|----------------|
G|---10-11--------|
D|----------------|
A|---8--9---------|
E|----------------|


Every so often it does a variation(this is in song not something that only i (atm)do
e|------------------------------------------------------------------------------|
B|------------------------------------------------------------------------------|
G|--10---11--then quickly up to--13---------------------------------------------|
D|------------------------------------------------------------------------------|
A|--8----9----------------------------11----------------------------------------|
E|------------------------------------------------------------------------------|

Chorus

e|------------------------------------------------------------------------------|
B|------------------------------------------------------------------------------|
G|-----10-6--363-----10-8-----6-3---3/10--6--3-6--------------------------------|
D|-8--8----------4-4-------8---------------------4------------------------------|
A|------------------------------------------------------------------------------|
E|------------------------------------------------------------------------------|
Bridge (Arpeggiate (play notes slowly) when playing this)
                        {This is over-dubbed near end of the bridge}
e|------------------||   |--9-9-9-9-9---11-11-11-11-11-11--ect--|
B|------------------||   |--------------------------------------|
G|------------------||   |--------------------------------------|
D|---11--13-------||   |----------------------------------------|
A|---11--13-Ect--||   |-----------------------------------------|
E|---9---11--------||   |---------------------------------------|


Solo, I have not got the correct amount of times u play some of the notes so just listen
Song, it sounds fine

e|------------------------------------------------------------------------------------9--|
B|---------------------9/1311------9/1311----11p9-----11p9----11p9-------9---------------|
G|-----------6h8-10-10----------10------------------10-------10------10--10--------------|
D|--666/888------------------------------------------------------------------------------|
A|---------------------------------------------------------------------------------------|
E|---------------------------------------------------------------------------------------|

e|-13-13-13p11p9------13--16--13-13p12p9h10--13-13--10-10-11-11--11p9--|
B|---------------------------------------------------------------------|
G|---------------------------------------------------------------------|
D|---------------------------------------------------------------------|
A|---------------------------------------------------------------------|
E|---------------------------------------------------------------------|
           {very fast from now til end of solo}
e|----11p9-------11--9-----11--9-----11--9------11/13-------------------------|
B|----------11---------11--------11---------11--------11/13/11-9999-11/13/11--|
G|----------------------------------------------------------------------------|
D|----------------------------------------------------------------------------|
A|----------------------------------------------------------------------------|
E|----------------------------------------------------------------------------|

e|--------------------------------------------------------------------|
B|-119--119--11-9-----11-9----11-9----11-9-----11-9-----11-9------11--|
G|-------------------10--------10------10------10-------10-------10---|
D|--------------------------------------------------------------------|
A|--------------------------------------------------------------------|
E|--------------------------------------------------------------------|

e|------------20-18------------20-18--------------|
B|--14-18-16---------14-16-18---------------------|
G|------------------------------------------------|
D|------------------------------------------------|
A|------------------------------------------------|
E|------------------------------------------------|
during the solo add bursts of alternate picking and add in some legato(bends, not to big
they could sounds bad), vibrato, pull-off, hammer-ons ect)
then go back to the chorus and your done

| /  slide up
|   slide down
| h  hammer-on
| p  pull-off
| ~  vibrato
| +  harmonic
| x  Mute note
===============================================================================

Lascia un commento

Facebook Auto Publish Powered By : XYZScripts.com