True Men Don't Kill Coyotes 

Intro 

e-|------------------------------|
B-|------------------------------|
G-|------------------------------|
D-|------------------------------|
A-|--------7--5------------------|
E-|--0--7---------0--3--5--5--0--|

Couplet

Guitare 1

e|-------------------------------|
B|-------------------------------|
G|--9---9--9-9-------------------|
D|--9---9--9-9-------5---9-------|
A|--7---7--7-7-------5---9-------|
E|----------------0--3---7-------|

Guitare 2

e-|------------------------------|
B-|------------------------------|
G-|-----------7------------------|
D-|-----9--------9-----9---------|
A-|--9-----9--------9------------|
E-|-----------------------7------|

et

e-|------------------------------|
B-|------------------------------|
G-|--------------------------7---|
D-|--------9--------9------------|
A-|-----9--------9--------9------|
E-|--7--------7--------7---------|


Refrain


e|-------------------------------|
B|-------------------------------|
G|--9---9--9-9-------------------|
D|--9---9--9-9-------5---9-------|
A|--7---7--7-7-------5---9-------|
E|----------------0--3---7-------|


SOLO 1 :

e|-----------------------------------|
B|--15---12--------------------------|
G|------------14---12---14-----------|
D|---------------------------12------|
A|-----------------------------------|
E|-----------------------------------|


SOLO 2 :

e|---------------------------------------------14--12--10--12--------|
B|-------------------------------------10--12------------------12----|
G|---------x-x------------------9--11--------------------------------|
D|--15/16--x-x--12--9-9--9--12---------------------------------------|
A|---------x-x-------------------------------------------------------|
E|-------------------------------------------------------------------|


Tablatures de Joe Le Tordu.

Lascia un commento

WP Facebook Auto Publish Powered By : XYZScripts.com