Under The Bridge
By the Red Hot Chili Peppers
From the album BloodSugarSexMagik
Tabbed by Martin Peters

Bass

Pre-2nd verse
G-|-----------------|---------|
D-|-----------------|---------|
A-|-----------------|---------|
E-|-0--0--0--0----0-|--(0)----|

1st chorus:
G-|-----------4-------|----4----------------|----------4-------|
D-|-----2--2-----2----|------2--4--4--4--4--|----2--2-----2----|
A-|-----------------4-|-2-------------------|----------------4-|
E-|-2-----------------|---------------------|-2----------------|

G-|----4--------------------|----------4-------|----4-----------------|
D-|-------2--4--4-4/64/64-|----2--2-----2----|-------2--4--4--4--4--|
A-|-2-----------------------|----------------4-|-2--------------------|
E-|-------------------------|-2----------------|----------------------|

G-|-----------4-------|----4-------------|
D-|-----2--2-----2----|-------2--4--4----|
A-|-----------------4-|-2----------------|
E-|-2-----------------|------------------|

3rd verse:
G-|---------|----------|---------|------------|
D-|---------|----------|---------|------------|
A-|------2--|-------0--|------2--|--4--0--0---|
E-|-0-------|--4-------|-0-------|------------|

G-|---------|----------|---------|------------|
D-|---------|----------|---------|------------|
A-|------2--|-------0--|------2--|--4--0--0---|
E-|-0-------|--4-------|-0-------|------------|

G-|---------|----------|---------|------------|-7/9-----|
D-|---------|----------|---------|------------|---------|
A-|------2--|-------0--|------2--|--4--0--0---|---------|
E-|-0-------|--4-------|-0-------|------------|---------|

2nd chorus:
G-|-----------4-------|----4-------------------|----------4-------|
D-|-----2--2-----2----|------2--4--4/6-4--2--4-|----2--2-----2----|
A-|-----------------4-|-2----------------------|----------------4-|
E-|-2-----------------|------------------------|-2----------------|

G-|----4----------------|----------4-------|----4-----------------|
D-|-------2--4---------|----2--2-----2----|-------2--4--4--4--4--|
A-|-2-------------------|----------------4-|-2--------------------|
E-|---------------2--2--|-2----------------|----------------------|

G-|-----------4-------|----4-------------------|
D-|-----2--2-----2----|-------2--4--4--4--4--4-|
A-|-----------------4-|-2----------------------|
E-|-2-----------------|------------------------|

Intelude:
G-|----------5------------|----7--------------5-------|
D-|----7--7-------7--5--7-|-5-----5--3----5/7----7--5-|
A-|-0---------------------|---------------------------|
E-|-----------------------|---------------------------|

G-|----9-----5------9-------|----7------------5---------|
D-|-------7------------7----|-5-----5-3-3-5/7---7-5-7-7-|
A-|-0-----------0---------0-|---------------------------|
E-|-------------------------|---------------------------|

G-|----9-------------------|----7------------5------|
D-|-------7--10----7--5--7-|-5-----5--3--5/7----7-5-|
A-|-0----------------------|------------------------|
E-|------------------------|------------------------|

G-|------------|-------------|
D-|------------|-------------|
A-|------------|-------------|
E-|-1--1--1----|-0--0--3--3--|

Outro (last 8 bars):
G-|----9-----5------------|----7--------------5-------|
D-|-------7-------5--7--5-|-5-----5--3----5/7----7--5-|
A-|-0---------------------|---------------------------|
E-|-----------------------|---------------------------|

G-|------9--------9-------|----7------------5h7p5-----|
D-|---------7--7-----7----|-5-----5--3--5/7-------7-5-|
A-|-0-------------------0-|---------------------------|
E-|-----------------------|---------------------------|

G-|----9-----------------|----7------------5------|
D-|-------7--10--7--5--7-|-5-----5--3--5/7----7-5-|
A-|-0--------------------|------------------------|
E-|----------------------|------------------------|

G-|------9--------9-------|----7----------|
D-|------------7-----7----|-5-----5--3----|
A-|-0-------0-----------0-|---------------|
E-|-----------------------|---------------|

Ending:
G-|-------|
D-|-------|
A-|-0-----|
E-|-------|

Lascia un commento

WP Facebook Auto Publish Powered By : XYZScripts.com