Universally Speaking
from "By The Way"
Music by KiedisFleaFruscianteSmith
Warner Bros. Music 2002


**************************************************************
version 1 :

Tab By Luca

verse and pre-chorus: D D4

Chorus:" Come on baby" A C#m G D A

solo:
|-------------------------------------------------------------|
|-------------------------------------------------------------|
|---11-9----11------------------------------------------------|
|--------12----12-11--12-11-12/-14--12-11-12-/-14-------------|
|-------------------------------------------------12--12-12-12|
|-------------------------------------------------------------|


|-------------------------------------------------------------|
|-------------------------------------------------------------|
|---11-9----11------------------------------------14--14-14-14|
|--------12----12-11--12-11-12/-14--12-11-12-/-14-------------|
|-------------------------------------------------------------|
|-------------------------------------------------------------|


|-------------------------------------------------------------|
|-------------------------------------------------------------|
|---11-9----11------------------------------------------------|
|--------12----12-11--12-11-12/-14--12-11-12-/-14-------------|
|-------------------------------------------------12--12-12-12|
|-------------------------------------------------------------|

|------------------------------------------------------------|
|------------------------------------------------------------|
|------------------------------------------------------------|
|----------------7--7/12-------------------------------------|
|--12-10-9-b9--5---------------------------------------------|
|------------------------------------------------------------|


chords positions:

  A  C#m     G   D   D4
|-5--(0)-----3----------|
|-5---5------3---7---8--|
|-6---6------4---7---7--|
|-7---6------5---7---7--|
|-7---7------5--(5)-(5)|
|-5----------3----------|


**************************************************************
**************************************************************
version 2 :

Tabbed by little pea

Main riff
E -------------------------]-----------------------------]
B -------------------------]-----------------------------]
G -7-7-7-7---7-7-7-7---]----7-7-7-7---7-7-7-7----]
D -7-7-7-7---7-7-7-7---]----7-7-7-7---7-7-7-7----]
A -5-5-5-5---5-5-5-5---]----7-7-7-7---7-7-7-7----]
E -------------------------]-----------------------------]

Chorus
Chords are A-C#m-G

Solo
E---------------------------------------------------------------------------
B---------------------------------------------------------------------------
G--11----------------------------------------------------------------------
D ------14--12--14--12--11--12--11--12--14--12--11--12--14-----
A------------------------------------------------------------------------12
E----------------------------------------------------------------------------

E---------------------------------------------------------------------------
B---------------------------------------------------------------------------
G--11-------------------------------------------------------------------14
D ------14--12--14--12--11--12--11--12--14--12--11--12--14-----
A--------------------------------------------------------------------------
E----------------------------------------------------------------------------

E---------------------------------------------------------------------------
B---------------------------------------------------------------------------
G--11----------------------------------------------------------------------
D ------14--12--14--12--11--12--11--12--14--12--11--12--14-----
A------------------------------------------------------------------------12
E----------------------------------------------------------------------------

E----------------------------------------------------------------------
B----------------------------------------------------------------------
G----------------------------------------------------------------------
D --7--5--4--5--4-------------7--12--------------------------------
A--------------------5--5--5-----------------------------------------
E----------------------------------------------------------------------

End

Lascia un commento

Facebook Auto Publish Powered By : XYZScripts.com