Walkabout

Note: This tab is for one guitar only. There is an additional guitar for
some parts wich is not transcribed. There's no problem with playing it with
one guitar (RHCP live, play it with one only).

It doesn't make a big difference.

INTRO :

E-|-------------------------------|------------------------------------------------|
B-|-3/5--3----------------------|--3/5--3--------------------------------------|
G-|-------------------------------|------------------------------------------------|
D-|-----------5---7/8/7--5-----|------------5---7/8/7--5--0----------------|
A-|----------------------------0--|------------------------------------------------|
E-|--------------------------------|------------------------------------------------|

E-|---------------------------------|------------------------------------------------|
B-|-3/5--3------------------------|------------------------------------------------|
G-|---------------------------------|------------------------------------------------|
D-|-----------5---7/8/7--5------|------------------------------------------------|
A-|-----------------------------0--|----------5---5/5(1/2)/5-------7-----------|
E-|---------------------------------|--5--8-----------------------8----------------|

E-|-----------------------------------|--------------------------------------------------|
B-|-----------------------------------|--3/5--3----------------------------------------|
G-|-------------------------------4--|------------------------------------10(12)-----|
D-|-----5--7--7/7(1/2)/7--5-----|-----------5--7/8/7--5--0--------------------|
A-|-7--------------------------------|--------------------------------------------------|
E-|-----------------------------------|--------------------------------------------------|
VERSE (Starts before the singing part):

E-|-7----7--7--x--7---7--7--7----5----5--5--x--5---5--5--5--------------------|
B-|-5----5--5--x--5---5--5--5----7----7--7--x--7---7--7--7--------------------|
G-|-5----5--5--x--5---5--5--5----5----5--5--x--5---5--5--5--------------------|
D-|-5----5--5--x--5---5--5--5----7----7--7--x--7---7--7--7--------------------|
A-|---------------------------------------------------------------------------------------|
E-|---------------------------------------------------------------------------------------|

E-|-7----7--7--x--8---7--7--7----5----5--5--x--5---5--5--5--------------------|
B-|-5----5--5--x--5---5--5--5----7----7--7--x--8---7--7--7--------------------|
G-|-5----5--5--x--5---5--5--5----5----5--5--x--5---5--5--5--------------------|
D-|-5----5--5--x--5---5--5--5----7----7--7--x--7---7--7--7--------------------|
A-|---------------------------------------------------------------------------------------|
E-|---------------------------------------------------------------------------------------|

CHORUS:
E-|-----------------------------------------|
B-|-----------------------------------------|
G-|----------------5-----------------------|
D-|-5/7--5--------------------------------|
A-|------------7-------6--5---------------|
E-|-----------------------------------------|

PRE-SOLO:
E-|---------------------------|-----------------------------------------------------------|
B-|---------------------------|------------------------------------------------------------|
G-|-10---9--8---x--7--7--|---10-10--9---8---x--7--7----------------------------|
D-|-9----8--7---x-6--6--|---9---9---8---7---x--6--6----------------------------|
A-|-11--10--9---x--8--8--|--11-11--10---9--x---8---8----------------------------|
E-|-9----8--7---x--6--6--|--9---9---8---7---x--6--6----------------------------|

SOLO:
E-|-----------------------------------------------------------------------10(11)/10-8---------------|
B-|-----------------------------------------------------------------10---------------------8/10-10--|
G-|-9(11)--9/7--9--7----------5------5-7(9)/7--5--7(9)----------------------------------------|
D-|-----------------------5/6-7-----7-----------------------------------------------------------------|
A-|------------------------------------------------------------------------------------------------------|
E-|------------------------------------------------------------------------------------------------------|

E-|----10(12)/10--8----------------8---------------------------------/15--|
B-|-x--------------------10--8--10-----10--8--10-10----10-10---------|
G-|-x----------------------------------------------------------------------------|
D-|-------------------------------------------------------------------------------|
A-|-------------------------------------------------------------------------------|
E-|-------------------------------------------------------------------------------|

E-|------------------------------------------------------------------------------|
B-|----5----------------5-----------------------------------------8-----8-----|
G-|----5----------------5---------7(9)/7--5--7--7--5--7/9-----9-----9--|
D-|-5----7--5--7--5------7--5-----------------------------------------------|
A-|------------------------------------------------------------------------------|
E-|------------------------------------------------------------------------------|

E-|-10(12)--10--8--10--9----------------8------------------------------|
B-|------------------------------10--8--10-----8--7-----------------------|
G-|-------------------------------------------------------7--7--5------------|
D-|----------------------------------------------------------------------------|
A-|----------------------------------------------------------------------------|
E-|----------------------------------------------------------------------------|

E-|---------------------------------------------------------------------------|
B-|---------------------------------------------------------------------------|
G-|-----------------------------------------5--------------------------------|
D-|---5--7-7---------------------5--7--------7--5--7--------------------|
A-|--------------5-5------5--7---------------------------------------------|
E-|--------------------8-----------------------------------------------------|
OUTRO (1st part):

E-|-----------------------------|-------------------------------------------------------|
B-|-8xx8xx8xx8-x-7-7--|-------------------------------------------------------|
G-|----------------------5-5--|-------------------------------------------------------|
D-|----------------------7-7--|-------------------------------------------------------|
A-|----------------------------|----------3-/4----------------------------------------|
E-|----------------------------|--3-/5------------------------------------------------|

OUTRO (2nd part):
E-|------------------------------------------------------------------------------------------------|
B-|------------------------------------------------------------------------------------------------|
G-|--------------------------5----------------------------5-----------------------------5--------|
D-|-3--xxxx--5----3/5--5---3--xxxx--5----3/5--5----3--xxxx--5----3/5--5--------|
A-|------------------------------------------------------------------------------------------------|
E-|------------------------------------------------------------------------------------------------|

E-|-----------------------------10(12)-------|
B-|---------------------------------------------|
G-|--5/7-5/7-5/7---------------------------|
D-|---------------------------------------------|
A-|---------------------------------------------|
E-|---------------------------------------------|

LAST CHORDS:

E-|-7-/5/7/5--------|
B-|-5-----------5-----|
G-|-5-----------------|
D-|--------------------|
A-|--------------------|
E-|--------------------|

------------------------------------------------------------------------------------------------------------------------

Any question, comment, correction, etc , DON'T BE LAZY!!! E-MAIL ME !

Transcribed by Anthony M.

E-MAIL: 76752.3042@compuserve.com

THE ORGANIC ANTI-BEAT BOX PAGE - Red Hot Chili Peppers:
http://ourworld.compuserve.com/homepage/Red_Hot_Chili_Peppers

Lascia un commento

WP Facebook Auto Publish Powered By : XYZScripts.com