Song : What is soul

G------------|------------|---------------------------------|
D----------0-|--------3-0-|----------0------------------3---|
A--0-3-0-3---|-0-3-0------|-0-3-0-3-----------------3-5---5-|
E------------|------------|-------------1-3--3-4-5----------|

G------------|------------|-------------------------------|
D----------0-|--------3-0-|----------0----------------3---|
A--0-3-0-3---|-0-3-0------|-0-3-0-3---------------3-5---5-|
E------------|------------|------------1-3--3-4-5---------|

G------------|------------|----------------------------------|
D----------0-|--------3-0-|----------0-----------------3-----|
A--0-3-0-3---|-0-3-0------|-0-3-0-3----------------3-5---5-3-|
E------------|------------|------------1-3~~3-4-5------------|

G-----------|------------|---------------------------------------7~~|
D---------0-|--------3-0-|----------0-----------------3-------------|
A-------3---|-0-3-0------|-0-3-0-3----------------3-5---5-3~--5~----|
E-----------|------------|------------1-3~~3-4-5--------------------|

G-------------|------------|----------------------------------|
D-----------0-|--------3-0-|----------0-----------------3-----|
A-------0-3---|-0-3-0------|-0-3-0-3----------------3-5---5-3-|
E-------------|------------|------------1-3--3-4-5------------|

During guitar solo
G-------------|------------|------------------------------------|
D-----------0-|--------3-0-|----------0-----------------3-------|
A-------0-3---|-0-3-0------|-0-3-0-3----------------3-5---5-3~~-|
E-------------|------------|------------1-3--3-4-5--------------|

G-------------------|-----------|-------------------------------------|
D----------------0--|-------3-0-|----------0------------------3-------|
A------------3p0----|-0-3-0-----|-0-3-0-3-----------------3-5---5-3~~-|
E--0h-1h-3p0--------|-----------|-------------1-3--3-4-5--------------|

Verse
G--------------|-------------|-------------------------|
D----------0---|---------3-0-|--------3-5-----------0--|
A--------------|-------------|-------------------------|
E--------------|-------------|-------------0h-1h-3-----|

G------------|------------|----------------------------------|
D----------0-|--------3-0-|----------0-----------------3-----|
A--0-3-0-3---|------------|-0-3-0-3----------------3-5---5-3-|
E------------|------------|-------------1-3--3-4-5-----------|

G--------------|--------------|------------------|
D--3h5-3-------|--------3-0---|-----------0------|
A--------3-5--|-0-3-0--------|-0-3-0-3----------|
E--------------|--------------|--------------1-3-|

Bass solo
G-----------------------------------------/17/19-19--|------------------------------|
D----------15-17-15-17-15-17-15-17/19-19-------------|-15-15-(17)-17~~---15--17-17~-|
A-xx-15-17-------------------------------------------|------------------------------|
E----------------------------------------------------|------------------------------|

G--------------------------------------------------17---16--------------------------
D--15h17p15----------------------15h17p15-------15---15----15-17-----------15-x-(17)
A-----------17-15----------15h17----------17-15------------------15-15xh17----------
E-----------------17p15h17---------------------------------------------------0-0----

G-----------------------5---------------------|
D--0-3-5-5-3-5-5-5-7-7x---7-5-3-5-3-----------|
A-----------------------------------5-3px-5--|
E---------------------------------------------|
WP Facebook Auto Publish Powered By : XYZScripts.com