What Is Soul
Album: Live Cover
Transcribed by: Greenie 12
Email: onkel44@hotmail.com

http://www.geocities.com/onkel442003/index.html


Main Riff:


e-|-----------------------------------|-----------------------------------|-
B-|-----------------------------------|-----------------------------------|-
G-|-----------------------------------|-----------------------------------|-
D-|-----------------------------------|--------------------------------3--|-
A-|--------------------------3-----3--|--5-----------------------3--------|-
E-|-----------------------5-----5-----|-----------------------5-----5-----|-


e-|-----------------------------------|-----------------------------------------|-
B-|-----------------------------------|-----------------------------------------|-
G-|-----------------------------------|-----------------------------------------|-
D-|-----------------------------------|------------------------------------3----|-
A-|--5-----------------------3-----3--|--5---------------------------3--5-------|-
E-|-----------------------5-----5-----|-------1----3--------3--4--5-------------|-


e-|-----------------------------------|-----------------------------------|-
B-|-----------------------------------|-----------------------------------|-
G-|-----------------------------------|-----------------------------------|-
D-|-----------------------------------|--------------------------------3--|-
A-|--5-----------------------3-----3--|--5-----------------------3--------|-
E-|-----------------------5-----5-----|-----------------------5-----5-----|-


e-|-----------------------------------|-----------------------------------------|-
B-|-----------------------------------|-----------------------------------------|-
G-|-----------------------------------|-----------------------------------------|-
D-|-----------------------------------|------------------------------------3----|-
A-|--5-----------------------3-----3--|--5---------------------------3--5-------|-
E-|-----------------------5-----5-----|-------1----3--------3--4--5-------------|-



Variations:


     One Octave Higher
e-|----------------------------------------|---------------------------------------|-
B-|----------------------------------------|---------------------------------------|-
G-|----------------------------------------|-----------------------------------10--|-
D-|----------------------------10------10--|--12-----------------------10----------|-
A-|------------------------12------12------|-----------------------12------12------|-
E-|----------------------------------------|---------------------------------------|-


e-|----------------------------------------|------------------------------------------------|-
B-|----------------------------------------|------------------------------------------------|-
G-|----------------------------------------|------------------------------------------10----|-
D-|----------------------------10------10--|--12------------------------------10--12--------|-
A-|--12--------------------12------12------|-------8----10--------10--11--12----------------|-
E-|----------------------------------------|------------------------------------------------|-


     Two Octaves Higher  
e-|----------------------------------------|------------------------------------13--|-
B-|----------------------------13------13--|--15------------------------13----------|-
G-|------------------------14------14------|------------------------14------14------|-
D-|----------------------------------------|----------------------------------------|-
A-|----------------------------------------|----------------------------------------|-
E-|----------------------------------------|----------------------------------------|-


e-|----------------------------------------|------------------------------------------13----|-
B-|--15------------------------13------13--|--15------------------------------13--15--------|-
G-|------------------------14------14------|------10----12--------12--13--14----------------|-
D-|----------------------------------------|------------------------------------------------|-
A-|----------------------------------------|------------------------------------------------|-
E-|----------------------------------------|------------------------------------------------|-



Bass:


G-|-----------------------------------|-----------------------------------|-
D-|-----------------------------------|--------------------------------3--|-
A-|--------------------------3-----3--|--5-----------------------3--------|-
E-|-----------------------5-----5-----|-----------------------5-----5-----|-


G-|-----------------------------------|-----------------------------------------|-
D-|-----------------------------------|------------------------------------3----|-
A-|--5-----------------------3-----3--|--5---------------------------3--5-------|-
E-|-----------------------5-----5-----|-------1----3--------3--4--5-------------|-


G-|-----------------------------------|-----------------------------------|-
D-|-----------------------------------|--------------------------------3--|-
A-|--5-----------------------3-----3--|--5-----------------------3--------|-
E-|-----------------------5-----5-----|-----------------------5-----5-----|-


G-|-----------------------------------|-----------------------------------------|-
D-|-----------------------------------|------------------------------------3----|-
A-|--5-----------------------3-----3--|--5---------------------------3--5-------|-
E-|-----------------------5-----5-----|-------1----3--------3--4--5-------------|-

Lascia un commento

Facebook Auto Publish Powered By : XYZScripts.com