Yertle The Turtle

Riff

e-|----------------------13-13------------|
B-|---------------------------------------|
G-|--10-10-10-10--------------------------|
D-|---------------8--10-------------------|
A-|---------------------------------------|
E-|---------------------------------------|

e-|---------------------------------------|
B-|----------------------11-11------------|
G-|--10-10-10-10--------------------------|
D-|---------------8--10-------------------|
A-|---------------------------------------|
E-|---------------------------------------|

Refrain

e-|---------------------------------------|
B-|---------------------------------------|
G-|---------------------------------------|
D-|--5---5--8--10--8--5--5--5--8----------|
A-|--5---5--8--10--8--5--5--5--8----------|
E-|--3---3--6--8---6--3--3--3--6----------|

Pont

e-|----- --- ----------------------------------------------|
B-|----- --- ----------------------------------------------|
G-|----- --- ----------------------------------------------|
D-|--10- -8- -5-5--8-8--10-10--11-11--12-12--11-11--12-----|
A-|--10- -8- -5-5--8-8--10-10--11-11--12-12--11-11--12-----|
E-|--8-- -6- -3-3--6-6--8--8---9--9---10-10--9--9---10-----|

e-|---------------------------------------|
B-|---------------------------------------|
G-|---------------10-10-------------------|
D-|--8-10---8-10--10-10-------------------|
A-|--8-10---8-10--8--8--------------------|
E-|--6-8----6-8---------------------------|

ou

e-|--------------------|
B-|-----x-x-x-x--------|
G-|-----x-x-x-x--------|
D-|-----x-x-x-x--------|  Wha-wha
A-|-----x-x-x-x--------|
E-|--------------------|


Tablatures de Joe Le Tordu.

Lascia un commento

Facebook Auto Publish Powered By : XYZScripts.com